a b c d e f g h i j k m n o p q r s t x v w y z 0-9

Resulta Imposible

Las Pastillas Del Abuelo

			
------------------------------------------------------------
------18-17h18-17-17--15--13--------------------------------
--15--------------------------------------------------------
------------------------------------------------------------


------------------------------------------------------------
------18-17h18-17-17--15--13--------------------------------
--15--------------------------------------------------------
------------------------------------------------------------

------------------------------------------------------------
------18-17h18-17-17--15------------------------------------
--15--------------------------------------------------------
------------------------------------------------------------<p>Fuente: Tusacordes</p>